ISO-10303-21;
HEADER;
FILE_DESCRIPTION (( 'STEP AP203' ),
    '1' );
FILE_NAME ('FULLVAC BS1KF5051.STEP',
    '2018-07-12T10:28:03',
    ( '' ),
    ( '' ),
    'SwSTEP 2.0',
    'SolidWorks 2017',
    '' );
FILE_SCHEMA (( 'CONFIG_CONTROL_DESIGN' ));
ENDSEC;

DATA;
#1 = VERTEX_POINT ( 'NONE', #206 ) ;
#2 = ORIENTED_EDGE ( 'NONE', *, *, #267, .F. ) ;
#3 = DIRECTION ( 'NONE',  ( 0.0000000000000000000, -1.000000000000000000, 0.0000000000000000000 ) ) ;
#4 = FACE_OUTER_BOUND ( 'NONE', #236, .T. ) ;
#5 = CARTESIAN_POINT ( 'NONE',  ( 75.00000000000000000, 2.483663493989479900, -37.50000000000000000 ) ) ;
#6 = CARTESIAN_POINT ( 'NONE',  ( 0.0000000000000000000, 2.483663493989479900, -37.50000000000000000 ) ) ;
#7 = CARTESIAN_POINT ( 'NONE',  ( -74.71346540353367500, 2.061611643136661300, -37.35673270176683800 ) ) ;
#8 = APPROVAL_DATE_TIME ( #269, #238 ) ;
#9 = FACE_BOUND ( 'NONE', #228, .T. ) ;
#10 = ORIENTED_EDGE ( 'NONE', *, *, #213, .F. ) ;
#11 = DIRECTION ( 'NONE',  ( 0.0000000000000000000, 0.0000000000000000000, -1.000000000000000000 ) ) ;
#12 = CARTESIAN_POINT ( 'NONE',  ( 0.0000000000000000000, 2.560000000000000100, 0.0000000000000000000 ) ) ;
#13 = CC_DESIGN_DATE_AND_TIME_ASSIGNMENT ( #99, #119, ( #291 ) ) ;
#14 = DIRECTION ( 'NONE',  ( -0.0000000000000000000, 1.000000000000000000, -0.0000000000000000000 ) ) ;
#15 = CARTESIAN_POINT ( 'NONE',  ( 0.0000000000000000000, 2.000700580844957600, 0.0000000000000000000 ) ) ;
#16 = EDGE_LOOP ( 'NONE', ( #170 ) ) ;
#17 = CARTESIAN_POINT ( 'NONE',  ( 0.0000000000000000000, 1.667242732761309300E-011, 29.66269330410094100 ) ) ;
#18 = AXIS2_PLACEMENT_3D ( 'NONE', #26, #3, #44 ) ;
#19 = APPROVAL_PERSON_ORGANIZATION ( #215, #255, #237 ) ;
#20 = ORIENTED_EDGE ( 'NONE', *, *, #267, .T. ) ;
#21 = PERSON_AND_ORGANIZATION_ROLE ( 'design_owner' ) ;
#22 = LOCAL_TIME ( 12, 28, 3.000000000000000000, #75 ) ;
#23 = EDGE_LOOP ( 'NONE', ( #128 ) ) ;
#24 = ORIENTED_EDGE ( 'NONE', *, *, #299, .T. ) ;
#25 = CARTESIAN_POINT ( 'NONE',  ( 0.0000000000000000000, 1.300000000000010000, 0.0000000000000000000 ) ) ;
#26 = CARTESIAN_POINT ( 'NONE',  ( 25.55000000000000100, 4.661923824423190400E-015, 0.0000000000000000000 ) ) ;
#27 = PRODUCT_RELATED_PRODUCT_CATEGORY ( 'detail', '', ( #266 ) ) ;
#28 = VERTEX_POINT ( 'NONE', #278 ) ;
#29 = AXIS2_PLACEMENT_3D ( 'NONE', #15, #305, #11 ) ;
#30 = FACE_BOUND ( 'NONE', #270, .T. ) ;
#31 = PLANE ( 'NONE',  #282 ) ;
#32 = DIRECTION ( 'NONE',  ( 0.0000000000000000000, -0.0000000000000000000, 1.000000000000000000 ) ) ;
#33 = CARTESIAN_POINT ( 'NONE',  ( 0.0000000000000000000, 4.770489558936219500E-015, 0.0000000000000000000 ) ) ;
#34 = UNCERTAINTY_MEASURE_WITH_UNIT (LENGTH_MEASURE( 1.000000000000000100E-005 ), #138, 'distance_accuracy_value', 'NONE');
#35 = CIRCLE ( 'NONE', #51, 29.66269330410094100 ) ;
#36 = EDGE_LOOP ( 'NONE', ( #210 ) ) ;
#37 = ADVANCED_FACE ( 'NONE', ( #4, #84 ), #150, .F. ) ;
#38 = CARTESIAN_POINT ( 'NONE',  ( 23.80000000000000100, 1.300000000000010000, 0.0000000000000000000 ) ) ;
#39 = DATE_AND_TIME ( #54, #134 ) ;
#40 = FACE_BOUND ( 'NONE', #60, .T. ) ;
#41 = APPROVAL_ROLE ( '' ) ;
#42 = ORIENTED_EDGE ( 'NONE', *, *, #244, .T. ) ;
#43 = APPROVAL_PERSON_ORGANIZATION ( #154, #164, #41 ) ;
#44 = DIRECTION ( 'NONE',  ( 0.0000000000000000000, -0.0000000000000000000, -1.000000000000000000 ) ) ;
#45 = ADVANCED_BREP_SHAPE_REPRESENTATION ( 'FULLVAC BS1KF5051', ( #96, #225 ), #61 ) ;
#46 = DIRECTION ( 'NONE',  ( 0.0000000000000000000, 0.0000000000000000000, -1.000000000000000000 ) ) ;
#47 = CIRCLE ( 'NONE', #125, 37.50000000000000000 ) ;
#48 = CARTESIAN_POINT ( 'NONE',  ( 0.0000000000000000000, 1.300000000000010000, 0.0000000000000000000 ) ) ;
#49 = EDGE_CURVE ( 'NONE', #216, #216, #55, .T. ) ;
#50 = DIRECTION ( 'NONE',  ( 0.0000000000000000000, -0.0000000000000000000, 1.000000000000000000 ) ) ;
#51 = AXIS2_PLACEMENT_3D ( 'NONE', #239, #72, #242 ) ;
#52 = DIRECTION ( 'NONE',  ( 0.0000000000000000000, 1.000000000000000000, 0.0000000000000000000 ) ) ;
#53 =( BOUNDED_SURFACE ( )  B_SPLINE_SURFACE ( 3, 3, ( 
 ( #297, #197, #220, #249, #173, #80, #79 ),
 ( #57, #82, #110, #298, #56, #7, #130 ),
 ( #247, #223, #107, #109, #245, #296, #105 ),
 ( #271, #5, #77, #153, #221, #248, #6 ) ),
 .UNSPECIFIED., .F., .T., .F. ) 
 B_SPLINE_SURFACE_WITH_KNOTS ( ( 4, 4 ),
 ( 4, 3, 4 ),
 ( 0.0000000000000000000, 1.000000000000000000 ),
 ( 0.0000000000000000000, 0.5000000000000000000, 1.000000000000000000 ),
 .UNSPECIFIED. ) 
 GEOMETRIC_REPRESENTATION_ITEM ( )  RATIONAL_B_SPLINE_SURFACE ( (
 ( 1.000000000000000000, 0.3333333333333333100, 0.3333333333333333100, 1.000000000000000000, 0.3333333333333333100, 0.3333333333333333100, 1.000000000000000000),
 ( 0.8622355601941755800, 0.2874118533980585300, 0.2874118533980585300, 0.8622355601941755800, 0.2874118533980585300, 0.2874118533980585300, 0.8622355601941755800),
 ( 0.8622355601941755800, 0.2874118533980585300, 0.2874118533980585300, 0.8622355601941755800, 0.2874118533980585300, 0.2874118533980585300, 0.8622355601941755800),
 ( 1.000000000000000000, 0.3333333333333333100, 0.3333333333333333100, 1.000000000000000000, 0.3333333333333333100, 0.3333333333333333100, 1.000000000000000000) ) ) 
 REPRESENTATION_ITEM ( '' )  SURFACE ( )  );
#54 = CALENDAR_DATE ( 2018, 12, 7 ) ;
#55 = CIRCLE ( 'NONE', #116, 25.55000000000000100 ) ;
#56 = CARTESIAN_POINT ( 'NONE',  ( -74.71346540353367500, 2.061611643136661300, 37.35673270176683800 ) ) ;
#57 = CARTESIAN_POINT ( 'NONE',  ( 0.0000000000000000000, 2.061611643136661300, -37.35673270176684500 ) ) ;
#58 = FACE_OUTER_BOUND ( 'NONE', #265, .T. ) ;
#59 = CARTESIAN_POINT ( 'NONE',  ( 0.0000000000000000000, 4.770489558936219500E-015, -25.55000000000000100 ) ) ;
#60 = EDGE_LOOP ( 'NONE', ( #95 ) ) ;
#61 =( GEOMETRIC_REPRESENTATION_CONTEXT ( 3 ) GLOBAL_UNCERTAINTY_ASSIGNED_CONTEXT ( ( #34 ) ) GLOBAL_UNIT_ASSIGNED_CONTEXT ( ( #138, #87, #253 ) ) REPRESENTATION_CONTEXT ( 'NONE', 'WORKASPACE' ) );
#62 = PLANE ( 'NONE',  #276 ) ;
#63 = DIRECTION ( 'NONE',  ( -0.0000000000000000000, 1.000000000000000000, -0.0000000000000000000 ) ) ;
#64 = ADVANCED_FACE ( 'NONE', ( #40, #58 ), #290, .T. ) ;
#65 = ORGANIZATION ( 'UNSPECIFIED', 'UNSPECIFIED', '' ) ;
#66 = PERSON_AND_ORGANIZATION_ROLE ( 'creator' ) ;
#67 = PERSON_AND_ORGANIZATION_ROLE ( 'design_supplier' ) ;
#68 = EDGE_CURVE ( 'NONE', #172, #172, #102, .T. ) ;
#69 = AXIS2_PLACEMENT_3D ( 'NONE', #158, #63, #140 ) ;
#70 = COORDINATED_UNIVERSAL_TIME_OFFSET ( 1, 0, .AHEAD. ) ;
#71 = CIRCLE ( 'NONE', #191, 25.55000000000000100 ) ;
#72 = DIRECTION ( 'NONE',  ( 0.0000000000000000000, 1.000000000000000000, 0.0000000000000000000 ) ) ;
#73 = PRODUCT_DEFINITION_FORMATION_WITH_SPECIFIED_SOURCE ( 'ANY', '', #266, .NOT_KNOWN. ) ;
#74 = CARTESIAN_POINT ( 'NONE',  ( 0.0000000000000000000, 1.930000000000010200, 0.0000000000000000000 ) ) ;
#75 = COORDINATED_UNIVERSAL_TIME_OFFSET ( 1, 0, .AHEAD. ) ;
#76 = EDGE_LOOP ( 'NONE', ( #205 ) ) ;
#77 = CARTESIAN_POINT ( 'NONE',  ( 75.00000000000000000, 2.483663493989479900, 37.50000000000000000 ) ) ;
#78 = EDGE_CURVE ( 'NONE', #235, #235, #35, .T. ) ;
#79 = CARTESIAN_POINT ( 'NONE',  ( 0.0000000000000000000, 2.000700580844958100, -37.12940952255130600 ) ) ;
#80 = CARTESIAN_POINT ( 'NONE',  ( -74.25881904510259800, 2.000700580844957600, -37.12940952255129900 ) ) ;
#81 = CC_DESIGN_APPROVAL ( #164, ( #73 ) ) ;
#82 = CARTESIAN_POINT ( 'NONE',  ( 74.71346540353367500, 2.061611643136661300, -37.35673270176683800 ) ) ;
#83 = LOCAL_TIME ( 12, 28, 3.000000000000000000, #70 ) ;
#84 = FACE_OUTER_BOUND ( 'NONE', #76, .T. ) ;
#85 = AXIS2_PLACEMENT_3D ( 'NONE', #202, #90, #178 ) ;
#86 = CARTESIAN_POINT ( 'NONE',  ( 0.0000000000000000000, 5.099999999999999600, 0.0000000000000000000 ) ) ;
#87 =( NAMED_UNIT ( * ) PLANE_ANGLE_UNIT ( ) SI_UNIT ( $, .RADIAN. ) );
#88 = CARTESIAN_POINT ( 'NONE',  ( 0.0000000000000000000, 2.560000000000000100, -23.80000000000000100 ) ) ;
#89 = EDGE_LOOP ( 'NONE', ( #313 ) ) ;
#90 = DIRECTION ( 'NONE',  ( 0.0000000000000000000, -1.000000000000000000, 0.0000000000000000000 ) ) ;
#91 = CARTESIAN_POINT ( 'NONE',  ( 0.0000000000000000000, 2.560000000000000100, -26.20000000000000300 ) ) ;
#92 = COORDINATED_UNIVERSAL_TIME_OFFSET ( 1, 0, .AHEAD. ) ;
#93 = CONICAL_SURFACE ( 'NONE', #262, 37.12940952255534900, 1.308996939000000000 ) ;
#94 = APPROVAL_STATUS ( 'not_yet_approved' ) ;
#95 = ORIENTED_EDGE ( 'NONE', *, *, #304, .T. ) ;
#96 = MANIFOLD_SOLID_BREP ( '\X2\5BE69AD4\X0\2', #292 ) ;
#97 = FACE_OUTER_BOUND ( 'NONE', #36, .T. ) ;
#98 = ORIENTED_EDGE ( 'NONE', *, *, #68, .T. ) ;
#99 = DATE_AND_TIME ( #147, #124 ) ;
#100 = FACE_BOUND ( 'NONE', #190, .T. ) ;
#101 = DIRECTION ( 'NONE',  ( 0.0000000000000000000, 0.0000000000000000000, -1.000000000000000000 ) ) ;
#102 = CIRCLE ( 'NONE', #306, 23.80000000000000100 ) ;
#103 = EDGE_LOOP ( 'NONE', ( #196 ) ) ;
#104 = DIRECTION ( 'NONE',  ( 0.0000000000000000000, -1.000000000000000000, 0.0000000000000000000 ) ) ;
#105 = CARTESIAN_POINT ( 'NONE',  ( 0.0000000000000000000, 2.248321221292526800, -37.50000000000000000 ) ) ;
#106 = AXIS2_PLACEMENT_3D ( 'NONE', #192, #268, #218 ) ;
#107 = CARTESIAN_POINT ( 'NONE',  ( 75.00000000000000000, 2.248321221292526800, 37.50000000000000000 ) ) ;
#108 = FACE_OUTER_BOUND ( 'NONE', #303, .T. ) ;
#109 = CARTESIAN_POINT ( 'NONE',  ( 0.0000000000000000000, 2.248321221292526800, 37.50000000000000000 ) ) ;
#110 = CARTESIAN_POINT ( 'NONE',  ( 74.71346540353367500, 2.061611643136661300, 37.35673270176683800 ) ) ;
#111 = DIRECTION ( 'NONE',  ( 0.0000000000000000000, 0.0000000000000000000, -1.000000000000000000 ) ) ;
#112 = DIRECTION ( 'NONE',  ( 0.0000000000000000000, 1.000000000000000000, 0.0000000000000000000 ) ) ;
#113 = SHAPE_DEFINITION_REPRESENTATION ( #311, #45 ) ;
#114 = DIRECTION ( 'NONE',  ( 0.0000000000000000000, 0.0000000000000000000, 1.000000000000000000 ) ) ;
#115 = AXIS2_PLACEMENT_3D ( 'NONE', #137, #277, #111 ) ;
#116 = AXIS2_PLACEMENT_3D ( 'NONE', #25, #168, #46 ) ;
#117 = PERSON_AND_ORGANIZATION_ROLE ( 'creator' ) ;
#118 = VERTEX_POINT ( 'NONE', #59 ) ;
#119 = DATE_TIME_ROLE ( 'classification_date' ) ;
#120 = CC_DESIGN_PERSON_AND_ORGANIZATION_ASSIGNMENT ( #185, #67, ( #73 ) ) ;
#121 = DATE_AND_TIME ( #174, #127 ) ;
#122 = CIRCLE ( 'NONE', #69, 37.50000000000000000 ) ;
#123 = EDGE_LOOP ( 'NONE', ( #176 ) ) ;
#124 = LOCAL_TIME ( 12, 28, 3.000000000000000000, #92 ) ;
#125 = AXIS2_PLACEMENT_3D ( 'NONE', #229, #14, #224 ) ;
#126 = FACE_OUTER_BOUND ( 'NONE', #151, .T. ) ;
#127 = LOCAL_TIME ( 12, 28, 3.000000000000000000, #264 ) ;
#128 = ORIENTED_EDGE ( 'NONE', *, *, #299, .F. ) ;
#129 = CC_DESIGN_PERSON_AND_ORGANIZATION_ASSIGNMENT ( #203, #66, ( #198 ) ) ;
#130 = CARTESIAN_POINT ( 'NONE',  ( 0.0000000000000000000, 2.061611643136661300, -37.35673270176684500 ) ) ;
#131 = APPROVAL_PERSON_ORGANIZATION ( #283, #238, #281 ) ;
#132 = ORIENTED_EDGE ( 'NONE', *, *, #279, .F. ) ;
#133 = CC_DESIGN_SECURITY_CLASSIFICATION ( #291, ( #73 ) ) ;
#134 = LOCAL_TIME ( 12, 28, 3.000000000000000000, #166 ) ;
#135 = CARTESIAN_POINT ( 'NONE',  ( 0.0000000000000000000, 2.000700580829862600, 0.0000000000000000000 ) ) ;
#136 = DIRECTION ( 'NONE',  ( 0.0000000000000000000, -1.000000000000000000, 0.0000000000000000000 ) ) ;
#137 = CARTESIAN_POINT ( 'NONE',  ( 0.0000000000000000000, 2.560000000000000100, 0.0000000000000000000 ) ) ;
#138 =( LENGTH_UNIT ( ) NAMED_UNIT ( * ) SI_UNIT ( .MILLI., .METRE. ) );
#139 = ORIENTED_EDGE ( 'NONE', *, *, #78, .F. ) ;
#140 = DIRECTION ( 'NONE',  ( 0.0000000000000000000, 0.0000000000000000000, -1.000000000000000000 ) ) ;
#141 = AXIS2_PLACEMENT_3D ( 'NONE', #12, #256, #254 ) ;
#142 = APPROVAL_STATUS ( 'not_yet_approved' ) ;
#143 = DATE_AND_TIME ( #258, #83 ) ;
#144 = MECHANICAL_CONTEXT ( 'NONE', #286, 'mechanical' ) ;
#145 = FACE_OUTER_BOUND ( 'NONE', #23, .T. ) ;
#146 = EDGE_LOOP ( 'NONE', ( #261 ) ) ;
#147 = CALENDAR_DATE ( 2018, 12, 7 ) ;
#148 = CC_DESIGN_DATE_AND_TIME_ASSIGNMENT ( #39, #208, ( #198 ) ) ;
#149 = CARTESIAN_POINT ( 'NONE',  ( 0.0000000000000000000, 3.830000000000000100, 0.0000000000000000000 ) ) ;
#150 = CYLINDRICAL_SURFACE ( 'NONE', #211, 26.20000000000000300 ) ;
#151 = EDGE_LOOP ( 'NONE', ( #10 ) ) ;
#152 = CARTESIAN_POINT ( 'NONE',  ( 37.50000000000000000, 5.099999999999999600, 0.0000000000000000000 ) ) ;
#153 = CARTESIAN_POINT ( 'NONE',  ( 0.0000000000000000000, 2.483663493989479900, 37.50000000000000000 ) ) ;
#154 = PERSON_AND_ORGANIZATION ( #295, #65 ) ;
#155 = VERTEX_POINT ( 'NONE', #275 ) ;
#156 = EDGE_LOOP ( 'NONE', ( #132 ) ) ;
#157 = ADVANCED_FACE ( 'NONE', ( #287, #200 ), #241, .T. ) ;
#158 = CARTESIAN_POINT ( 'NONE',  ( 0.0000000000000000000, 5.099999999999999600, 0.0000000000000000000 ) ) ;
#159 = CC_DESIGN_APPROVAL ( #238, ( #198 ) ) ;
#160 = ADVANCED_FACE ( 'NONE', ( #126, #167 ), #217, .F. ) ;
#161 = ADVANCED_FACE ( 'NONE', ( #108, #308 ), #53, .T. ) ;
#162 = PERSON_AND_ORGANIZATION ( #295, #65 ) ;
#163 = VERTEX_POINT ( 'NONE', #91 ) ;
#164 = APPROVAL ( #260, 'UNSPECIFIED' ) ;
#165 = CIRCLE ( 'NONE', #141, 26.20000000000000300 ) ;
#166 = COORDINATED_UNIVERSAL_TIME_OFFSET ( 1, 0, .AHEAD. ) ;
#167 = FACE_OUTER_BOUND ( 'NONE', #89, .T. ) ;
#168 = DIRECTION ( 'NONE',  ( 0.0000000000000000000, -1.000000000000000000, 0.0000000000000000000 ) ) ;
#169 = VERTEX_POINT ( 'NONE', #88 ) ;
#170 = ORIENTED_EDGE ( 'NONE', *, *, #230, .F. ) ;
#171 = DIRECTION ( 'NONE',  ( 0.0000000000000000000, 1.000000000000000000, 0.0000000000000000000 ) ) ;
#172 = VERTEX_POINT ( 'NONE', #227 ) ;
#173 = CARTESIAN_POINT ( 'NONE',  ( -74.25881904510259800, 2.000700580844957600, 37.12940952255129900 ) ) ;
#174 = CALENDAR_DATE ( 2018, 12, 7 ) ;
#175 = FACE_OUTER_BOUND ( 'NONE', #146, .T. ) ;
#176 = ORIENTED_EDGE ( 'NONE', *, *, #230, .T. ) ;
#177 = DIRECTION ( 'NONE',  ( 0.0000000000000000000, 0.0000000000000000000, -1.000000000000000000 ) ) ;
#178 = DIRECTION ( 'NONE',  ( 0.0000000000000000000, 0.0000000000000000000, -1.000000000000000000 ) ) ;
#179 = DIRECTION ( 'NONE',  ( 0.0000000000000000000, -0.0000000000000000000, -1.000000000000000000 ) ) ;
#180 = ADVANCED_FACE ( 'NONE', ( #30, #302 ), #31, .T. ) ;
#181 = CALENDAR_DATE ( 2018, 12, 7 ) ;
#182 = CARTESIAN_POINT ( 'NONE',  ( 0.0000000000000000000, 1.300000000000010000, -25.55000000000000100 ) ) ;
#183 = AXIS2_PLACEMENT_3D ( 'NONE', #152, #171, #50 ) ;
#184 = APPLICATION_PROTOCOL_DEFINITION ( 'international standard', 'config_control_design', 1994, #310 ) ;
#185 = PERSON_AND_ORGANIZATION ( #295, #65 ) ;
#186 = CIRCLE ( 'NONE', #204, 26.20000000000000300 ) ;
#187 = ORIENTED_EDGE ( 'NONE', *, *, #279, .T. ) ;
#188 = CC_DESIGN_PERSON_AND_ORGANIZATION_ASSIGNMENT ( #240, #21, ( #266 ) ) ;
#189 = APPROVAL_DATE_TIME ( #143, #164 ) ;
#190 = EDGE_LOOP ( 'NONE', ( #98 ) ) ;
#191 = AXIS2_PLACEMENT_3D ( 'NONE', #33, #307, #177 ) ;
#192 = CARTESIAN_POINT ( 'NONE',  ( 0.0000000000000000000, 3.600000000000000500, 0.0000000000000000000 ) ) ;
#193 = DIRECTION ( 'NONE',  ( -0.0000000000000000000, 1.000000000000000000, -0.0000000000000000000 ) ) ;
#194 = DIRECTION ( 'NONE',  ( 0.0000000000000000000, 0.0000000000000000000, -1.000000000000000000 ) ) ;
#195 = APPROVAL_DATE_TIME ( #121, #255 ) ;
#196 = ORIENTED_EDGE ( 'NONE', *, *, #49, .F. ) ;
#197 = CARTESIAN_POINT ( 'NONE',  ( 74.25881904510259800, 2.000700580844957600, -37.12940952255129900 ) ) ;
#198 = PRODUCT_DEFINITION ( 'UNKNOWN', '', #73, #233 ) ;
#199 = CARTESIAN_POINT ( 'NONE',  ( 26.20000000000000300, 2.560000000000000100, 0.0000000000000000000 ) ) ;
#200 = FACE_OUTER_BOUND ( 'NONE', #156, .T. ) ;
#201 = ADVANCED_FACE ( 'NONE', ( #9, #209 ), #294, .T. ) ;
#202 = CARTESIAN_POINT ( 'NONE',  ( 0.0000000000000000000, 0.6500000000000080200, 0.0000000000000000000 ) ) ;
#203 = PERSON_AND_ORGANIZATION ( #295, #65 ) ;
#204 = AXIS2_PLACEMENT_3D ( 'NONE', #86, #136, #252 ) ;
#205 = ORIENTED_EDGE ( 'NONE', *, *, #244, .F. ) ;
#206 = CARTESIAN_POINT ( 'NONE',  ( 0.0000000000000000000, 5.099999999999999600, -26.20000000000000300 ) ) ;
#207 = CARTESIAN_POINT ( 'NONE',  ( 0.0000000000000000000, 2.483663493989479900, -37.50000000000000000 ) ) ;
#208 = DATE_TIME_ROLE ( 'creation_date' ) ;
#209 = FACE_OUTER_BOUND ( 'NONE', #251, .T. ) ;
#210 = ORIENTED_EDGE ( 'NONE', *, *, #49, .T. ) ;
#211 = AXIS2_PLACEMENT_3D ( 'NONE', #149, #243, #293 ) ;
#212 = APPLICATION_PROTOCOL_DEFINITION ( 'international standard', 'config_control_design', 1994, #286 ) ;
#213 = EDGE_CURVE ( 'NONE', #169, #169, #226, .T. ) ;
#214 = CC_DESIGN_PERSON_AND_ORGANIZATION_ASSIGNMENT ( #162, #284, ( #291 ) ) ;
#215 = PERSON_AND_ORGANIZATION ( #295, #65 ) ;
#216 = VERTEX_POINT ( 'NONE', #182 ) ;
#217 = CYLINDRICAL_SURFACE ( 'NONE', #312, 23.80000000000000100 ) ;
#218 = DIRECTION ( 'NONE',  ( 0.0000000000000000000, 0.0000000000000000000, -1.000000000000000000 ) ) ;
#219 = CC_DESIGN_PERSON_AND_ORGANIZATION_ASSIGNMENT ( #250, #117, ( #73 ) ) ;
#220 = CARTESIAN_POINT ( 'NONE',  ( 74.25881904510259800, 2.000700580844957600, 37.12940952255129900 ) ) ;
#221 = CARTESIAN_POINT ( 'NONE',  ( -75.00000000000000000, 2.483663493989479900, 37.50000000000000000 ) ) ;
#222 = CYLINDRICAL_SURFACE ( 'NONE', #85, 25.55000000000000100 ) ;
#223 = CARTESIAN_POINT ( 'NONE',  ( 75.00000000000000000, 2.248321221292526800, -37.50000000000000000 ) ) ;
#224 = DIRECTION ( 'NONE',  ( 0.0000000000000000000, 0.0000000000000000000, -1.000000000000000000 ) ) ;
#225 = AXIS2_PLACEMENT_3D ( 'NONE', #231, #300, #234 ) ;
#226 = CIRCLE ( 'NONE', #115, 23.80000000000000100 ) ;
#227 = CARTESIAN_POINT ( 'NONE',  ( 0.0000000000000000000, 1.300000000000010000, -23.80000000000000100 ) ) ;
#228 = EDGE_LOOP ( 'NONE', ( #20 ) ) ;
#229 = CARTESIAN_POINT ( 'NONE',  ( 0.0000000000000000000, 2.483663493989479900, 0.0000000000000000000 ) ) ;
#230 = EDGE_CURVE ( 'NONE', #285, #285, #47, .T. ) ;
#231 = CARTESIAN_POINT ( 'NONE',  ( 0.0000000000000000000, 0.0000000000000000000, 0.0000000000000000000 ) ) ;
#232 = FACE_BOUND ( 'NONE', #246, .T. ) ;
#233 = DESIGN_CONTEXT ( 'detailed design', #310, 'design' ) ;
#234 = DIRECTION ( 'NONE',  ( 1.000000000000000000, 0.0000000000000000000, 0.0000000000000000000 ) ) ;
#235 = VERTEX_POINT ( 'NONE', #17 ) ;
#236 = EDGE_LOOP ( 'NONE', ( #2 ) ) ;
#237 = APPROVAL_ROLE ( '' ) ;
#238 = APPROVAL ( #94, 'UNSPECIFIED' ) ;
#239 = CARTESIAN_POINT ( 'NONE',  ( 0.0000000000000000000, 1.667242732761309300E-011, 0.0000000000000000000 ) ) ;
#240 = PERSON_AND_ORGANIZATION ( #295, #65 ) ;
#241 = CYLINDRICAL_SURFACE ( 'NONE', #106, 37.50000000000000000 ) ;
#242 = DIRECTION ( 'NONE',  ( 0.0000000000000000000, 0.0000000000000000000, 1.000000000000000000 ) ) ;
#243 = DIRECTION ( 'NONE',  ( 0.0000000000000000000, -1.000000000000000000, 0.0000000000000000000 ) ) ;
#244 = EDGE_CURVE ( 'NONE', #163, #163, #165, .T. ) ;
#245 = CARTESIAN_POINT ( 'NONE',  ( -75.00000000000000000, 2.248321221292526800, 37.50000000000000000 ) ) ;
#246 = EDGE_LOOP ( 'NONE', ( #288 ) ) ;
#247 = CARTESIAN_POINT ( 'NONE',  ( 0.0000000000000000000, 2.248321221292526800, -37.50000000000000000 ) ) ;
#248 = CARTESIAN_POINT ( 'NONE',  ( -75.00000000000000000, 2.483663493989479900, -37.50000000000000000 ) ) ;
#249 = CARTESIAN_POINT ( 'NONE',  ( 0.0000000000000000000, 2.000700580844958100, 37.12940952255130600 ) ) ;
#250 = PERSON_AND_ORGANIZATION ( #295, #65 ) ;
#251 = EDGE_LOOP ( 'NONE', ( #187 ) ) ;
#252 = DIRECTION ( 'NONE',  ( 0.0000000000000000000, 0.0000000000000000000, -1.000000000000000000 ) ) ;
#253 =( NAMED_UNIT ( * ) SI_UNIT ( $, .STERADIAN. ) SOLID_ANGLE_UNIT ( ) );
#254 = DIRECTION ( 'NONE',  ( 0.0000000000000000000, 0.0000000000000000000, -1.000000000000000000 ) ) ;
#255 = APPROVAL ( #142, 'UNSPECIFIED' ) ;
#256 = DIRECTION ( 'NONE',  ( -0.0000000000000000000, 1.000000000000000000, -0.0000000000000000000 ) ) ;
#257 = ORIENTED_EDGE ( 'NONE', *, *, #213, .T. ) ;
#258 = CALENDAR_DATE ( 2018, 12, 7 ) ;
#259 = CIRCLE ( 'NONE', #29, 37.12940952255130600 ) ;
#260 = APPROVAL_STATUS ( 'not_yet_approved' ) ;
#261 = ORIENTED_EDGE ( 'NONE', *, *, #304, .F. ) ;
#262 = AXIS2_PLACEMENT_3D ( 'NONE', #135, #112, #114 ) ;
#263 = CC_DESIGN_APPROVAL ( #255, ( #291 ) ) ;
#264 = COORDINATED_UNIVERSAL_TIME_OFFSET ( 1, 0, .AHEAD. ) ;
#265 = EDGE_LOOP ( 'NONE', ( #139 ) ) ;
#266 = PRODUCT ( 'FULLVAC BS1KF5051', 'FULLVAC BS1KF5051', '', ( #144 ) ) ;
#267 = EDGE_CURVE ( 'NONE', #1, #1, #186, .T. ) ;
#268 = DIRECTION ( 'NONE',  ( 0.0000000000000000000, -1.000000000000000000, 0.0000000000000000000 ) ) ;
#269 = DATE_AND_TIME ( #181, #22 ) ;
#270 = EDGE_LOOP ( 'NONE', ( #257 ) ) ;
#271 = CARTESIAN_POINT ( 'NONE',  ( 0.0000000000000000000, 2.483663493989479900, -37.50000000000000000 ) ) ;
#272 = EDGE_LOOP ( 'NONE', ( #42 ) ) ;
#273 = DIRECTION ( 'NONE',  ( 0.0000000000000000000, -1.000000000000000000, 0.0000000000000000000 ) ) ;
#274 = ADVANCED_FACE ( 'NONE', ( #289, #175 ), #222, .F. ) ;
#275 = CARTESIAN_POINT ( 'NONE',  ( 0.0000000000000000000, 2.000700580844957600, -37.12940952255130600 ) ) ;
#276 = AXIS2_PLACEMENT_3D ( 'NONE', #38, #273, #179 ) ;
#277 = DIRECTION ( 'NONE',  ( 0.0000000000000000000, -1.000000000000000000, 0.0000000000000000000 ) ) ;
#278 = CARTESIAN_POINT ( 'NONE',  ( 0.0000000000000000000, 5.099999999999999600, -37.50000000000000000 ) ) ;
#279 = EDGE_CURVE ( 'NONE', #28, #28, #122, .T. ) ;
#280 = ADVANCED_FACE ( 'NONE', ( #145, #232 ), #93, .T. ) ;
#281 = APPROVAL_ROLE ( '' ) ;
#282 = AXIS2_PLACEMENT_3D ( 'NONE', #199, #52, #32 ) ;
#283 = PERSON_AND_ORGANIZATION ( #295, #65 ) ;
#284 = PERSON_AND_ORGANIZATION_ROLE ( 'classification_officer' ) ;
#285 = VERTEX_POINT ( 'NONE', #207 ) ;
#286 = APPLICATION_CONTEXT ( 'configuration controlled 3d designs of mechanical parts and assemblies' ) ;
#287 = FACE_OUTER_BOUND ( 'NONE', #123, .T. ) ;
#288 = ORIENTED_EDGE ( 'NONE', *, *, #78, .T. ) ;
#289 = FACE_OUTER_BOUND ( 'NONE', #103, .T. ) ;
#290 = PLANE ( 'NONE',  #18 ) ;
#291 = SECURITY_CLASSIFICATION ( '', '', #309 ) ;
#292 = CLOSED_SHELL ( 'NONE', ( #201, #37, #157, #180, #161, #160, #280, #301, #64, #274 ) ) ;
#293 = DIRECTION ( 'NONE',  ( 0.0000000000000000000, 0.0000000000000000000, -1.000000000000000000 ) ) ;
#294 = PLANE ( 'NONE',  #183 ) ;
#295 = PERSON ( 'UNSPECIFIED', 'UNSPECIFIED', 'UNSPECIFIED', ('UNSPECIFIED'), ('UNSPECIFIED'), ('UNSPECIFIED') ) ;
#296 = CARTESIAN_POINT ( 'NONE',  ( -75.00000000000000000, 2.248321221292526800, -37.50000000000000000 ) ) ;
#297 = CARTESIAN_POINT ( 'NONE',  ( 0.0000000000000000000, 2.000700580844958100, -37.12940952255130600 ) ) ;
#298 = CARTESIAN_POINT ( 'NONE',  ( 0.0000000000000000000, 2.061611643136661300, 37.35673270176684500 ) ) ;
#299 = EDGE_CURVE ( 'NONE', #155, #155, #259, .T. ) ;
#300 = DIRECTION ( 'NONE',  ( 0.0000000000000000000, 0.0000000000000000000, 1.000000000000000000 ) ) ;
#301 = ADVANCED_FACE ( 'NONE', ( #100, #97 ), #62, .T. ) ;
#302 = FACE_OUTER_BOUND ( 'NONE', #272, .T. ) ;
#303 = EDGE_LOOP ( 'NONE', ( #24 ) ) ;
#304 = EDGE_CURVE ( 'NONE', #118, #118, #71, .T. ) ;
#305 = DIRECTION ( 'NONE',  ( -0.0000000000000000000, 1.000000000000000000, -0.0000000000000000000 ) ) ;
#306 = AXIS2_PLACEMENT_3D ( 'NONE', #48, #193, #101 ) ;
#307 = DIRECTION ( 'NONE',  ( -0.0000000000000000000, 1.000000000000000000, -0.0000000000000000000 ) ) ;
#308 = FACE_OUTER_BOUND ( 'NONE', #16, .T. ) ;
#309 = SECURITY_CLASSIFICATION_LEVEL ( 'unclassified' ) ;
#310 = APPLICATION_CONTEXT ( 'configuration controlled 3d designs of mechanical parts and assemblies' ) ;
#311 = PRODUCT_DEFINITION_SHAPE ( 'NONE', 'NONE',  #198 ) ;
#312 = AXIS2_PLACEMENT_3D ( 'NONE', #74, #104, #194 ) ;
#313 = ORIENTED_EDGE ( 'NONE', *, *, #68, .F. ) ;
ENDSEC;
END-ISO-10303-21;
